Spartito Mis Colegas

Di tutto di più sul suonare la chitarra
Rispondi
Avatar utente
Jon Schaffer
Apprendista
Apprendista
Messaggi: 100
Iscritto il: 30 set 2007, 18:18
Località: Genova
Contatta:

Spartito Mis Colegas

Messaggio da Jon Schaffer » 04 ott 2007, 19:03

avrei bisogno del testo di Mis colegas e il suo spartito. chi me lo puo passare?grazie?(moderatori nn sapevo dv piazzare sto messaggio vedete voi se va bene qui al massimo spostatelo)
- Jon Schaffer -

http://www.myspace.com/typhonhell <--- mio myspace musica ambient/sperimentale


Avatar utente
slash!
Maestro
Maestro
Messaggi: 1852
Iscritto il: 30 set 2007, 09:55
Località: Cagliari

Re: Ska-p

Messaggio da slash! » 04 ott 2007, 21:05

Song: Mis Colegas

RIFF 1
E -7-5---------
B -----8-7-5-7-
G -------------
D -------------
A -------------
e -------------

RIFF 2
E ---3-----2-----0-----
B -----3-----3-----1---
G -0-----0-----0-------
D ---------------------
A ---------------------
e ---------------------

RIFF 3
E -------------------
B -------------------
G -----7--------5----
D -------------------
A -8-7-5----8-7-3----
e -------------------

pm - palm muted


VERSO (primero palm muted, luego con distorsión)
G(pm) D(pm) C(pm) G(pm) D(pm) C(pm)
Vas caminando despacio, sin ganas de sonreír, de sonreír
G(pm) D(pm) C(pm) A C
Hemos quedado en el barrio, unos litros y cien duros de hachís
G D C G D C
Perdidos en cualquier lado, soñando con escapar, con escapar
G D C A C
La mayoría del paro, y el que curra del trabajo temporal
G D C G D C
Han pasado 10 años, mis colegas donde están
G D C A C
El que no anda en el mako, hace poco lo acabaron de enterar
A C D
La heroína no acudió a su funeral


CORO (distorsion)
G C
Eh, chaval, siempre a la sombra de la sociedad
G
somos la causa de su malestar
D C G D
Escupele al sitema y nunca dejes de molestar
G C
No, chaval, no es ley de vida tu desigualdad
G
no te dieron la oportunidad
D C G D
Escupele al sitema y nunca dejes de molestar

C G C G
Existe una alternativa, legalizar,
C G D C
esto tiene que cambiar, lo vamos a cambiar


VERSO (deja sonar los acordes de la primera línea, lo demas es igual)
G5 G5
Que te ha pasado princesa, que no te veo sonreír, sonreír
Aun no tienes tu dosis, por la noche te tienes que prostituir
Maldita mierda prohibida, que nuestros sueños rompió, los rompió
Hablábamos de injusticia, comenzábamos nuestra revolución
Comenzábamos nuestra revolución


CORO
Eh, chaval, siempre a la sombra de la sociedad
somos la causa de su malestar
Escupele al sitema y nunca dejes de molestar
No, chaval, no es ley de vida tu desigualdad
no te dieron la oportunidad
Escupele al sitema y nunca dejes de molestar

Existe una alternativa, legalizar,
esto tiene que cambiar, lo vamos a cambiar


BREAK
E F#-G D C
Agresividad ! no somos ratas de ciudad
E F#-G D C
Agresividad ! contra el estado del malestar
E F#-G D C
Agresividad ! no somos ratas de ciudad
E F#-G D C (Riff 1)
Agresividad ! contra el estado del malestar


SOLO

rythm guitar
E(pm) G(pm) C(pm) D(pm)
2 2 2 2
E(pm G(pm) D
2 2 4
E(pm) G(pm) C(pm) D(pm)
2 2 2 2
E(pm) G(pm) D C D C D C D C D C D C D
2 2 3 1 3 1 3 1 1 1 1 1 1 1 1

lead guitar
E -7--77777777-5------5/7-5/7-5/7-5/7-5-7-10----------------------------------
B ---------------8-7---------------------------8-7-8-7-------7-8-7------------
G -----------------------------------------------------7-9---------7-9--8-----
D -------------------------------------------------------------------------7--
A ----------------------------------------------------------------------------
e ----------------------------------------------------------------------------


BRIDGE (Riff 2, luego acordes distorsionados)

G D C G D C
Del paraíso al infierno, hay un paso nada mas,
G D C
La prohibición es un business
A C A C D
La droga existe y no la vas a eliminar, la solución consiste en legalizar


CORO
Eh, chaval, siempre a la sombra de la sociedad
somos la causa de su malestar
Escupele al sitema y nunca dejes de molestar
No, chaval, no es ley de vida tu desigualdad
no te dieron la oportunidad

END (Riff 3)
D C
A mis colegas y a la peña en general
D C
No os dejéis nunca, nunca esclavizar,
D
La unión hace la fuerza
C G
Nunca, lo has de olvidar



Acordes
G D C A G5 E F#
E ------------------------
B ------------------------
G ----7--5----------------
D -5--7--5--7---5---2---4-
A -5--5--3--7-------2---4-
e -3--------5---3---0---2-
un giorno anche la guerra si chinerà al suono di una chitarra [jim morrison]

Avatar utente
Jon Schaffer
Apprendista
Apprendista
Messaggi: 100
Iscritto il: 30 set 2007, 18:18
Località: Genova
Contatta:

Re: Ska-p

Messaggio da Jon Schaffer » 04 ott 2007, 21:42

slash! ha scritto:Song: Mis Colegas

RIFF 1
E -7-5---------
B -----8-7-5-7-
G -------------
D -------------
A -------------
e -------------

RIFF 2
E ---3-----2-----0-----
B -----3-----3-----1---
G -0-----0-----0-------
D ---------------------
A ---------------------
e ---------------------

RIFF 3
E -------------------
B -------------------
G -----7--------5----
D -------------------
A -8-7-5----8-7-3----
e -------------------

pm - palm muted


VERSO (primero palm muted, luego con distorsión)
G(pm) D(pm) C(pm) G(pm) D(pm) C(pm)
Vas caminando despacio, sin ganas de sonreír, de sonreír
G(pm) D(pm) C(pm) A C
Hemos quedado en el barrio, unos litros y cien duros de hachís
G D C G D C
Perdidos en cualquier lado, soñando con escapar, con escapar
G D C A C
La mayoría del paro, y el que curra del trabajo temporal
G D C G D C
Han pasado 10 años, mis colegas donde están
G D C A C
El que no anda en el mako, hace poco lo acabaron de enterar
A C D
La heroína no acudió a su funeral


CORO (distorsion)
G C
Eh, chaval, siempre a la sombra de la sociedad
G
somos la causa de su malestar
D C G D
Escupele al sitema y nunca dejes de molestar
G C
No, chaval, no es ley de vida tu desigualdad
G
no te dieron la oportunidad
D C G D
Escupele al sitema y nunca dejes de molestar

C G C G
Existe una alternativa, legalizar,
C G D C
esto tiene que cambiar, lo vamos a cambiar


VERSO (deja sonar los acordes de la primera línea, lo demas es igual)
G5 G5
Que te ha pasado princesa, que no te veo sonreír, sonreír
Aun no tienes tu dosis, por la noche te tienes que prostituir
Maldita mierda prohibida, que nuestros sueños rompió, los rompió
Hablábamos de injusticia, comenzábamos nuestra revolución
Comenzábamos nuestra revolución


CORO
Eh, chaval, siempre a la sombra de la sociedad
somos la causa de su malestar
Escupele al sitema y nunca dejes de molestar
No, chaval, no es ley de vida tu desigualdad
no te dieron la oportunidad
Escupele al sitema y nunca dejes de molestar

Existe una alternativa, legalizar,
esto tiene que cambiar, lo vamos a cambiar


BREAK
E F#-G D C
Agresividad ! no somos ratas de ciudad
E F#-G D C
Agresividad ! contra el estado del malestar
E F#-G D C
Agresividad ! no somos ratas de ciudad
E F#-G D C (Riff 1)
Agresividad ! contra el estado del malestar


SOLO

rythm guitar
E(pm) G(pm) C(pm) D(pm)
2 2 2 2
E(pm G(pm) D
2 2 4
E(pm) G(pm) C(pm) D(pm)
2 2 2 2
E(pm) G(pm) D C D C D C D C D C D C D
2 2 3 1 3 1 3 1 1 1 1 1 1 1 1

lead guitar
E -7--77777777-5------5/7-5/7-5/7-5/7-5-7-10----------------------------------
B ---------------8-7---------------------------8-7-8-7-------7-8-7------------
G -----------------------------------------------------7-9---------7-9--8-----
D -------------------------------------------------------------------------7--
A ----------------------------------------------------------------------------
e ----------------------------------------------------------------------------


BRIDGE (Riff 2, luego acordes distorsionados)

G D C G D C
Del paraíso al infierno, hay un paso nada mas,
G D C
La prohibición es un business
A C A C D
La droga existe y no la vas a eliminar, la solución consiste en legalizar


CORO
Eh, chaval, siempre a la sombra de la sociedad
somos la causa de su malestar
Escupele al sitema y nunca dejes de molestar
No, chaval, no es ley de vida tu desigualdad
no te dieron la oportunidad

END (Riff 3)
D C
A mis colegas y a la peña en general
D C
No os dejéis nunca, nunca esclavizar,
D
La unión hace la fuerza
C G
Nunca, lo has de olvidar



Acordes
G D C A G5 E F#
E ------------------------
B ------------------------
G ----7--5----------------
D -5--7--5--7---5---2---4-
A -5--5--3--7-------2---4-
e -3--------5---3---0---2-
grazie sei un mito!a me si inceppa ttt se apro un'altra pagina d internet
- Jon Schaffer -

http://www.myspace.com/typhonhell <--- mio myspace musica ambient/sperimentale

Avatar utente
Enriquez
Maestro
Maestro
Messaggi: 2290
Iscritto il: 28 giu 2006, 03:05
Località: L'Aquila

Re: Ska-p

Messaggio da Enriquez » 04 ott 2007, 23:03

Sposto in didattica, e cambio il titolo per maggiore chiarezza. :ciauz:

Avatar utente
slash!
Maestro
Maestro
Messaggi: 1852
Iscritto il: 30 set 2007, 09:55
Località: Cagliari

Re: Ska-p

Messaggio da slash! » 05 ott 2007, 08:56

Jon Schaffer ha scritto: grazie sei un mito!a me si inceppa ttt se apro un'altra pagina d internet
figurati :ciao: ...
un giorno anche la guerra si chinerà al suono di una chitarra [jim morrison]


Rispondi
  • Argomenti simili
    Risposte
    Visite
    Ultimo messaggio

Chi c’è in linea

Visitano il forum: Nessuno e 3 ospiti