quei fastdiosi lick

Di tutto di più sul suonare la chitarra
Rispondi
erpeppo
Esperto
Esperto
Messaggi: 310
Iscritto il: 17 lug 2007, 14:56

quei fastdiosi lick

Messaggio da erpeppo » 15 nov 2008, 23:09

consigli su come eseguire quei, per me, fastidiosissimi lick velocemente????
i lick tipo quelli che fanno i maiden negli assoli... tre note ripetute, ripetute e ripetute velocemente

come diavolo si fanno a fare??

grazie mille
Immagine


Avatar utente
alexi_laiho
Maestro
Maestro
Messaggi: 6192
Iscritto il: 31 lug 2008, 01:21
Località: Caltavuturo (PA)

Re: quei fastdiosi lick

Messaggio da alexi_laiho » 15 nov 2008, 23:18

me lo son sempre chiesto... :spara:
lespaul ha scritto:
Frusciante ha scritto:stó imparando da questo forum...che é molto saggio evitare di mettersi contro dei metallari...soprattutto se in BRANCO. :lollol:

IN METAL WE TRUST!!

Avatar utente
silente
Maestro
Maestro
Messaggi: 5493
Iscritto il: 23 apr 2007, 09:53

Re: quei fastdiosi lick

Messaggio da silente » 15 nov 2008, 23:41

Un esempio? :ciao:
ImmagineIl Cantagallo Podcast

erpeppo
Esperto
Esperto
Messaggi: 310
Iscritto il: 17 lug 2007, 14:56

Re: quei fastdiosi lick

Messaggio da erpeppo » 16 nov 2008, 11:19

tipo

|------------------------------------------------------------------|
|--------------12--15-----------12--15----------12--15-----------|
|--14---b(16)----------14b(16)----------14b(16)---------14b(16)--|
|------------------------------------------------------------------|
|------------------------------------------------------------------|
|------------------------------------------------------------------|


|-------------------------------------------------------------------|
|--12--15----------12--15----------12--15----------12--15---------|
|----------14b(16)---------14b(16)---------14b(16)--------14b(16)-|
|-------------------------------------------------------------------|
|-------------------------------------------------------------------|
|-------------------------------------------------------------------|
Immagine

Avatar utente
silente
Maestro
Maestro
Messaggi: 5493
Iscritto il: 23 apr 2007, 09:53

Re: quei fastdiosi lick

Messaggio da silente » 16 nov 2008, 11:22

Che brano è? c'è su youtube?
ImmagineIl Cantagallo Podcast


erpeppo
Esperto
Esperto
Messaggi: 310
Iscritto il: 17 lug 2007, 14:56

Re: quei fastdiosi lick

Messaggio da erpeppo » 16 nov 2008, 11:31

certo è il solo di the trooper dei maiden
Immagine

Avatar utente
silente
Maestro
Maestro
Messaggi: 5493
Iscritto il: 23 apr 2007, 09:53

Re: quei fastdiosi lick

Messaggio da silente » 16 nov 2008, 12:08

Credo di aver capito. Sono "sweeppati": per esempio nel primo lick prende il 14 (sul sol) con il 12 (sul si) con una pennata verso giù (appunto con uno sweep), e il 15 (sul si) con una pennata in su. Io lo proverei prima senza il bending e scandendo bene lo sweep. :ciao:
ImmagineIl Cantagallo Podcast

Avatar utente
Cosimino
Maestro
Maestro
Messaggi: 6470
Iscritto il: 16 dic 2006, 12:35
Località: modena

Re: quei fastdiosi lick

Messaggio da Cosimino » 17 nov 2008, 08:30

erpeppo ha scritto:tre note ripetute, ripetute e ripetute velocemente
ti sei risposto da solo, sono 3 note che vanno ripetute ripetute e poi ripetute, prima lentamente e poi sempre più velocemente... per la tecnica ci ha pensato silente, e puoi sempre guardare qualche video sul tubo!

metal-guitarist
Esperto
Esperto
Messaggi: 431
Iscritto il: 24 ago 2007, 14:34
Località: RC

Re: quei fastdiosi lick

Messaggio da metal-guitarist » 17 nov 2008, 15:28

Ma il si e il re non sono legati? :cosa:
|------------------------------------------------------------------|
|--------------12h15-----------12h15----------12h15-----------|
|--14---b(16)----------14b(16)----------14b(16)---------14b(16)--|
|------------------------------------------------------------------|
|------------------------------------------------------------------|
|------------------------------------------------------------------|
Oppure sono plettrati... :cosa:
"Mi sono deciso a ricominciare da capo. Verso la California con un dolore nel cuore." Led Zeppelin

Avatar utente
Angus9046
Esperto
Esperto
Messaggi: 946
Iscritto il: 08 set 2008, 00:33
Località: Oderzo (TV)

Re: quei fastdiosi lick

Messaggio da Angus9046 » 17 nov 2008, 17:18

metal-guitarist ha scritto:Ma il si e il re non sono legati? :cosa:
|------------------------------------------------------------------|
|--------------12h15-----------12h15----------12h15-----------|
|--14---b(16)----------14b(16)----------14b(16)---------14b(16)--|
|------------------------------------------------------------------|
|------------------------------------------------------------------|
|------------------------------------------------------------------|
Oppure sono plettrati... :cosa:
legati... h sta per hammer on credo...
Podcast
Podcast

Avatar utente
silente
Maestro
Maestro
Messaggi: 5493
Iscritto il: 23 apr 2007, 09:53

Re: quei fastdiosi lick

Messaggio da silente » 17 nov 2008, 20:05

Beh, dipende da chi lo ha scritto. Se lo ha scritto lui in persona, allora mi piego al suo dettato :capo: . Ma secondo me, anche riguardando il video ( http://it.youtube.com/watch?v=jgqxQmAbTBc ) al min 2:25, è sweeppato. L'unica cosa che noto è un differente ritmo tra quando fa il lick veloce e velocissimo (si nota anche dal movimento della mano destra che subito dopo il bending dà una plettrata decisa sul si, mentre quando diventa velocissimo la destra è molto più dolce e fluida). :ciao:
ImmagineIl Cantagallo Podcast

MatteoCP
Principiante
Principiante
Messaggi: 37
Iscritto il: 15 ott 2008, 20:07

Re: quei fastdiosi lick

Messaggio da MatteoCP » 17 nov 2008, 21:21

Ah che bello, questo è il primo dei 2 soli, quello di Adrian!!
X fare questo lick io solitamente metto indice sul 12 medio sul 14 e anulare sul 15.. inizi plettrando il 14 su cui esegui il bending, poi plettrata sul 12 e hammer-on sul 15.. prosegui così via via aumentanto il tempo!
se hai bisogno di qualcosa sul quel solo chiedi pure, è stato il primo che ho imparato! :rocken:
"Solo chi spara ad una chitarra non ha diritto a una canzone..." Davide Van de Sfroos - Rosanera

metal-guitarist
Esperto
Esperto
Messaggi: 431
Iscritto il: 24 ago 2007, 14:34
Località: RC

Re: quei fastdiosi lick

Messaggio da metal-guitarist » 17 nov 2008, 22:37

silente ha scritto:Beh, dipende da chi lo ha scritto. Se lo ha scritto lui in persona, allora mi piego al suo dettato :capo: . Ma secondo me, anche riguardando il video ( http://it.youtube.com/watch?v=jgqxQmAbTBc ) al min 2:25, è sweeppato. L'unica cosa che noto è un differente ritmo tra quando fa il lick veloce e velocissimo (si nota anche dal movimento della mano destra che subito dopo il bending dà una plettrata decisa sul si, mentre quando diventa velocissimo la destra è molto più dolce e fluida). :ciao:
Veramente l'ho scritta io... :Very Happy:
Riguardando bene il video anche a me sembra sweeppato e non legato... pomeriggio mi sono messo e l'ho fatto pure io questo lick... :Very Happy:
"Mi sono deciso a ricominciare da capo. Verso la California con un dolore nel cuore." Led Zeppelin


Rispondi
  • Argomenti simili
    Risposte
    Visite
    Ultimo messaggio

Chi c’è in linea

Visitano il forum: Nessuno e 6 ospiti