domande da principiante

Di tutto di più sul suonare la chitarra
Avatar utente
darkfender
Maestro
Maestro
Messaggi: 3818
Iscritto il: 05 apr 2007, 10:36

Messaggio da darkfender » 26 giu 2007, 11:24

hai presente:
do re mi fa sol la si do

prendi la prima e la quinta e la ottava= do sol do

dal punto di vista pratico:

-----------------------------------
-----------------------------------
-----------------------------------
-4---------------------------------
-4---------------------------------
-2---------------------------------


-----------------------------------
-----------------------------------
-4---------------------------------
-4---------------------------------
-2---------------------------------
-----------------------------------


-----------------------------------
-5---------------------------------
-4---------------------------------
-2---------------------------------
-----------------------------------
-----------------------------------

queste son le diteggiature più usate (non di do messe note a caso poi prendi la nota più bassa ovvero i 2 e consideri siano le toniche).


balla
Apprendista
Apprendista
Messaggi: 102
Iscritto il: 05 apr 2007, 19:49

Messaggio da balla » 26 giu 2007, 12:14

ok grazie.... ora per un po verdo di approfondire un po il discorso "teoria" :Very Happy:

Zanna
Apprendista
Apprendista
Messaggi: 100
Iscritto il: 07 feb 2007, 11:58

Messaggio da Zanna » 02 lug 2007, 11:54

inserisco qui la mia domanda da principiante.

-----------------------------------
-----------------------------------
-----------------------------------
-------3---------------------------
-------3---------------------------
-----------------------------------

Che accordo è?

Avatar utente
darkfender
Maestro
Maestro
Messaggi: 3818
Iscritto il: 05 apr 2007, 10:36

Messaggio da darkfender » 02 lug 2007, 11:57

Zanna ha scritto:inserisco qui la mia domanda da principiante.

-----------------------------------
-----------------------------------
-----------------------------------
-------3---------------------------
-------3---------------------------
-----------------------------------

Che accordo è?
un power ridotto a V-VIII

ovvero anzichè la prima al basso, c'è la quinta al basso (NB che I e VIII son la stessa nota su 2 ottave diverse).

esteso sarebbe così:

-----------------------------------
-----------------------------------
-----------------------------------
-------3---------------------------
-------3---------------------------
-------1---------------------------

con I-V-VIII (in modo che la prima sia ripetuta).

Zanna
Apprendista
Apprendista
Messaggi: 100
Iscritto il: 07 feb 2007, 11:58

Messaggio da Zanna » 02 lug 2007, 14:29

darkfender ha scritto: -------3---------------------------
-------3---------------------------
-------1---------------------------

con I-V-VIII (in modo che la prima sia ripetuta).
Quindi un FA?


Avatar utente
darkfender
Maestro
Maestro
Messaggi: 3818
Iscritto il: 05 apr 2007, 10:36

Messaggio da darkfender » 02 lug 2007, 15:28

yess entrambi sono FA uno ha la quinta al basso e l'altro la prima

Zanna
Apprendista
Apprendista
Messaggi: 100
Iscritto il: 07 feb 2007, 11:58

Messaggio da Zanna » 02 lug 2007, 15:34

darkfender ha scritto:yess entrambi sono FA uno ha la quinta al basso e l'altro la prima
ok grazie


Rispondi
  • Argomenti simili
    Risposte
    Visite
    Ultimo messaggio

Chi c’è in linea

Visitano il forum: Nessuno e 3 ospiti