Consigli esercizi!!!

Di tutto di più sul suonare la chitarra
Rispondi
Avatar utente
ѕнιмσ!
Apprendista
Apprendista
Messaggi: 132
Iscritto il: 19 lug 2008, 16:21
Località: In The Paradise City!!! xD

Consigli esercizi!!!

Messaggio da ѕнιмσ! » 19 ago 2008, 12:10

Bellaaaa!!! Vorrei na dritta per sciogliere le mani!!! io sn autodidatta...e per questo fatto ho una posizione della mano sbagliata...ho l'abitudine di usare solo l'indice e il medio.... -_____- qualche esercizio per prevenire??? grazie!! Ah un altra cosa....vorrei sapere anke qualche esercizio per velocizzare le dita!!! sn un aspirante shredder!!! xDDD grazie ancora!!! :Ok:
Il 92% dei teenagers ascolta musica rap o hip hop.
Solo l'8% dei ragazzi ascolta musica rock o punk.
Inserisci questa frase nella tua firma se sei fra questo 8%...

...ENORME CAZZATA!!!


Avatar utente
avanzo
Moderatore
Moderatore
Messaggi: 3715
Iscritto il: 02 ago 2007, 18:16
Località: Roma

Re: Consigli esercizi!!!

Messaggio da avanzo » 19 ago 2008, 14:32

i soliti 1-2-3-4 su tutto il manico e le infinite varianti...

-----------------------------------------------1-2-3-4-5-4-3-2---------------------
--------------------------------------1-2-3-4-------------------5-4-3-2------------
-----------------------------1-2-3-4--------------------------------------5-4-3-2--
--------------------1-2-3-4---------------------------------------------------------
-----------1-2-3-4------------------------------------------------------------------
--1-2-3-4---------------------------------------------------------------------------

ecc ecc

poi la stessa cosa facendo 1-3-2-4 (indice-anulare-medio-mignolo) e risalendo 4-2-3-1

poi con tutte le altre combinazioni (1-4-2-3, 2-4-3-1 ecc ecc)

oppure usando due dita alla volta (lungo tutto il manico)

es. indice + medio

--------------------------------1---1-----1-2-1-2-1----1------
-----------1----1-----1-2-1-2----2----2-------------2-----2---
--1-2-1-2----2----2--------------------------------------------

e stessa cosa con le altre combinazioni di dita (indice + anulare, medio + mignolo, anulare + mignolo ecc ecc)

intanto inizia con questi, ma prima correggi la posizione della mano, se ne hai bisogno (spesso capita di assumere una posizione sbagliata se si è autodidatti, esperienza personale)...le dita devono essere a martello sulla tastiera, con il pollice più o meno a metà manico e all'altezza del dito medio...

http://it.dada.net/freeweb/musicaefede/ ... izioni.htm

Avatar utente
Frusciante
Maestro
Maestro
Messaggi: 9053
Iscritto il: 19 nov 2007, 16:28

Re: Consigli esercizi!!!

Messaggio da Frusciante » 19 ago 2008, 19:48

quoto avanzo e in più aggiungo un altro esercizio, questo fatto solo con 3 dita:

-----------------------------------------1-2-3----
---------------------------------1-2-3--------------
--------------------------1-2-3----------------
------------------1-2-3------
-----------1-2-3---------------
--1-2-3------------------------


ma io utilizzo di più questo:
--------------------------------------2-3-4------------
------------------------------2-3-4--------------------
----------------------2-3-4----------------------------
--------------2-3-4--------------------------------------
-------2-3-4--------------------------------------------
-2-3-4------------------------------------------------

così fai molto esercizio per le altre 3 dita...io lo utilizzo, nn so quanto utile sia, ma a me fà effetto.In più la difficoltà stà anche nell'alternare la plettrata da una corda all'altra. :ciao:
un amico ha scritto:V. prima di uscire, deve chiedere il permesso alla chitarra.
un altro amico ha scritto:wa ma stai ancora suonando? sì e fierr! Pigliatell' na pausa.
http://24.media.tumblr.com/tumblr_lkl20 ... o1_400.gif :fumato:

Avatar utente
avanzo
Moderatore
Moderatore
Messaggi: 3715
Iscritto il: 02 ago 2007, 18:16
Località: Roma

Re: Consigli esercizi!!!

Messaggio da avanzo » 19 ago 2008, 20:36

Frusciante ha scritto:quoto avanzo e in più aggiungo un altro esercizio, questo fatto solo con 3 dita:

-----------------------------------------1-2-3----
---------------------------------1-2-3--------------
--------------------------1-2-3----------------
------------------1-2-3------
-----------1-2-3---------------
--1-2-3------------------------


ma io utilizzo di più questo:
--------------------------------------2-3-4------------
------------------------------2-3-4--------------------
----------------------2-3-4----------------------------
--------------2-3-4--------------------------------------
-------2-3-4--------------------------------------------
-2-3-4------------------------------------------------

così fai molto esercizio per le altre 3 dita...io lo utilizzo, nn so quanto utile sia, ma a me fà effetto.In più la difficoltà stà anche nell'alternare la plettrata da una corda all'altra. :ciao:
così prendi due piccioni con una fava :Very Happy:

lo stesso esercizio lo puoi fare sempre alternando le dita, saltando un tasto quando usi dita non adiacenti (es. indice - anulare e mignolo)...

Avatar utente
ѕнιмσ!
Apprendista
Apprendista
Messaggi: 132
Iscritto il: 19 lug 2008, 16:21
Località: In The Paradise City!!! xD

Re: Consigli esercizi!!!

Messaggio da ѕнιмσ! » 21 ago 2008, 12:17

Bella regààà!!! l'esecizio 1-2-3-4 lo so fare bn!!! solo qllo d'alternare le dita un po meno..li sn lento! xD invece qllo 2-3-4 è l'esercizio ke fa x me!!! xke l'anulare ed il migniolo li uso poco! bellaaaa!!! nn so che farei senza de voi!!! siete i miei maestri! xD :capo:
P.S. :ot: Avete messo qlke video su u tube??? ero curioso! xD (una volta ho visto un video di milital..militare...milica...nn me ricordo cm se chiama!!!) :Ok:
Il 92% dei teenagers ascolta musica rap o hip hop.
Solo l'8% dei ragazzi ascolta musica rock o punk.
Inserisci questa frase nella tua firma se sei fra questo 8%...

...ENORME CAZZATA!!!


Avatar utente
Frusciante
Maestro
Maestro
Messaggi: 9053
Iscritto il: 19 nov 2007, 16:28

Re: Consigli esercizi!!!

Messaggio da Frusciante » 21 ago 2008, 12:26

ѕнιмσ! ha scritto:Bella regààà!!! l'esecizio 1-2-3-4 lo so fare bn!!! solo qllo d'alternare le dita un po meno..li sn lento! xD invece qllo 2-3-4 è l'esercizio ke fa x me!!! xke l'anulare ed il migniolo li uso poco! bellaaaa!!! nn so che farei senza de voi!!! siete i miei maestri! xD :capo:
P.S. :ot: Avete messo qlke video su u tube??? ero curioso! xD (una volta ho visto un video di milital..militare...milica...nn me ricordo cm se chiama!!!) :Ok:
io niente...aspè, forse intendi metalmitia o una cosa del genere( :risatona: )????dove l'hai visto?
un amico ha scritto:V. prima di uscire, deve chiedere il permesso alla chitarra.
un altro amico ha scritto:wa ma stai ancora suonando? sì e fierr! Pigliatell' na pausa.
http://24.media.tumblr.com/tumblr_lkl20 ... o1_400.gif :fumato:

Avatar utente
ѕнιмσ!
Apprendista
Apprendista
Messaggi: 132
Iscritto il: 19 lug 2008, 16:21
Località: In The Paradise City!!! xD

Re: Consigli esercizi!!!

Messaggio da ѕнιмσ! » 21 ago 2008, 14:01

sisi! lui! xDDD Xke una volta ho visto una cover e il nome di ki l'ha caricato si kiamava cosi!
Il 92% dei teenagers ascolta musica rap o hip hop.
Solo l'8% dei ragazzi ascolta musica rock o punk.
Inserisci questa frase nella tua firma se sei fra questo 8%...

...ENORME CAZZATA!!!


Rispondi
  • Argomenti simili
    Risposte
    Visite
    Ultimo messaggio

Chi c’è in linea

Visitano il forum: Nessuno e 3 ospiti