arpeggio giusto?

Di tutto di più sul suonare la chitarra
Rispondi
-->LV<--
Principiante
Principiante
Messaggi: 30
Iscritto il: 17 nov 2007, 10:53

arpeggio giusto?

Messaggio da -->LV<-- » 17 ott 2008, 09:09

salve a tutti
ho creato questo nuovo arpeggio... fate i vostri commenti su come migliorarlo!

----------0p2---------3------------------0---------------0
-------3--------3--------3-------------1---------------1--
-----2-------------2-------2---------2---------------0----
----0-------------------------------3---------------------
----------------------------------------------------3-----
----------------------------------------------------------

credo sia un tempo 4/4...


grazie in anticipo.


Avatar utente
darkfender
Maestro
Maestro
Messaggi: 3818
Iscritto il: 05 apr 2007, 10:36

Re: arpeggio giusto?

Messaggio da darkfender » 17 ott 2008, 09:21

così è troppo semplice...puoi renderlo più interessante lavorando un po' di arrangiamenti.

La cosa migliore sarebbe utilizzare i rivolti e suonare accordi più complessi ma puoi anche provare soluzioni più semplici.

Ti faccio un piccolo esempio:

----------0p14---------15--------------------0-------------0
-------15--------15--------15-------------13---------------13-
-----14-------------14-------14---------14---------------0----
----0-------------------------------15---------------------
----------------------------------------------------15-----
----------------------------------------------------------

Sperando di aver scritto bene ho spostato le note senza corde a vuoto più in alto di una ottava (magari puoi suonare il primo accordo nell'ottava alta, il secondo il quella bassa e il terzo in quella alta.


Magari fa schifo ma è per fare un esempio di idea.

Avatar utente
MkMouss
Maestro
Maestro
Messaggi: 2196
Iscritto il: 12 set 2008, 11:19
Contatta:

Re: arpeggio giusto?

Messaggio da MkMouss » 17 ott 2008, 09:29

Non ho la chitarra quindi non ti posso dire le note esatte...

io proverei aggiungendo una nota ricorrente sulla 5 corda

tipo:

------------0p2---------------3------------------0---------------0
---------3-------------3---------3-------------1---------------1--
------2-------------------2---------2---------2---------------0---
----0-----------------------------------3-------------------------
-----3-3--3----0p3-0----2--3---2--3--2---3---eccetera-----3-----
------------------------------------------------------------------

una cosa del genere.. ripeto le non ho la chitarra e non ho voglia di armonizzare.. (anche se forse non sono sbagliate... una è la 7° un'altra la 5°)
Gibson Les Paul standard '99 - Gibson ES335 Dot Ressue '95 - Blue Guitars Telecaster 2004
Lisa homeguitar tele style '09 --> WORK IN PROGRESS!!!!
FENDER BANDMASTER Silverface 68 - BLACKSTAR Artisan 15H
http://www.myspace.com/eyestonebrain
La funzione "Cerca" è tua amica !!

-->LV<--
Principiante
Principiante
Messaggi: 30
Iscritto il: 17 nov 2007, 10:53

Re: arpeggio giusto?

Messaggio da -->LV<-- » 17 ott 2008, 09:41

e se mettessi il barrè al terzo tasto? non verrebbe un suono più carino secondo voi?

Avatar utente
darkfender
Maestro
Maestro
Messaggi: 3818
Iscritto il: 05 apr 2007, 10:36

Re: arpeggio giusto?

Messaggio da darkfender » 17 ott 2008, 10:00

cambi tonalità e basta ma è una delle soluzioni semplici di cui parlavo...mettine 2 o 3 e il tuo arpeggio suonerà più fresco e personale :)


-->LV<--
Principiante
Principiante
Messaggi: 30
Iscritto il: 17 nov 2007, 10:53

Re: arpeggio giusto?

Messaggio da -->LV<-- » 17 ott 2008, 10:09

quindi alla fine dovrebbe venire così:

----------3p5------6----------------3-----------3-
--------6-----6-------6------------4-----------4--
------5---------5-------5--------5-----------3----
----3--------------------------6-------------------
--------------------------------------------6------

l'ho provato e mi sembra molto carino...

Avatar utente
MkMouss
Maestro
Maestro
Messaggi: 2196
Iscritto il: 12 set 2008, 11:19
Contatta:

Re: arpeggio giusto?

Messaggio da MkMouss » 17 ott 2008, 10:22

amo molto gli arpeggi in particolare quando si complicano.... mi piacciono soprattuto quando dimenzionano il tempo... tipo si mangiano i quarti :Very Happy:

cmq avvolte in effetti farlo semplice e "cantabile" è la cosa migliore!!

bravo... continua così :esatto:
magari registralo e facci sentire come lo realizzi :yourock:
Gibson Les Paul standard '99 - Gibson ES335 Dot Ressue '95 - Blue Guitars Telecaster 2004
Lisa homeguitar tele style '09 --> WORK IN PROGRESS!!!!
FENDER BANDMASTER Silverface 68 - BLACKSTAR Artisan 15H
http://www.myspace.com/eyestonebrain
La funzione "Cerca" è tua amica !!

Avatar utente
Dark Angel
Maestro
Maestro
Messaggi: 2724
Iscritto il: 09 ago 2007, 22:52

Re: arpeggio giusto?

Messaggio da Dark Angel » 17 ott 2008, 19:34

----------0p2h0---------3------------------ 0--------------- 0
-------3-------- 3-----3----------------- 1---------------1--
-----2------------ -2--------2---------2---------------0----
----0----------------------0---------3---------------------
---------------------------------------------------2-3-----
----------------------------------------------------------

ho cambiato un po' :Very Happy:

è scritto un po' male, e devi stare attento ai tempi perchè le note non hanno tutte la stessa durata.
Tired of lying in the sunshine staying home to watch the rain
You are young and life is long and there is time to kill today
And then the one day you find ten years have got behind you
No one told you when to run, you missed the starting gun

And you run and you run to catch up with the sun, but it's sinking
And racing around to come up behind you again
The sun is the same in the relative way, but you're older
And shorter of breath and one day closer to death

-->LV<--
Principiante
Principiante
Messaggi: 30
Iscritto il: 17 nov 2007, 10:53

Re: arpeggio giusto?

Messaggio da -->LV<-- » 23 ott 2008, 12:18

ciao ragazzi sono ancora io :Very Happy:
visto che non sono molto pratico di teoria e di improvvisazione... non è che vorreste darmi qualche consiglio su come continuare questa specie di canzone?



:yourock:

Avatar utente
Cosimino
Maestro
Maestro
Messaggi: 6470
Iscritto il: 16 dic 2006, 12:35
Località: modena

Re: arpeggio giusto?

Messaggio da Cosimino » 23 ott 2008, 13:47

trova un giro di accordi per le strofe, possono anche essere quelli dell'arpeggio se suonano bene, vedi in che tonalità sono e improvvisaci su per creare un solo, oppure il solo lo fai su un giro di accordi diverso, poi strutturi la canzone, tipo facendo intro, strofa, solo, strofa outro o roba del genere!

Altro
Maestro
Maestro
Messaggi: 4085
Iscritto il: 21 ott 2008, 19:18

Re: arpeggio giusto?

Messaggio da Altro » 27 ott 2008, 13:59

-->LV<-- ha scritto:salve a tutti
ho creato questo nuovo arpeggio... fate i vostri commenti su come migliorarlo!

----------0p2---------3------------------0---------------0
-------3--------3--------3-------------1---------------1--
-----2-------------2-------2---------2---------------0----
----0-------------------------------3---------------------
----------------------------------------------------3-----
----------------------------------------------------------

credo sia un tempo 4/4...


grazie in anticipo.

Pensavo gli arpeggi fossero sequenze di note che costruiscono gli accordi (I-III-V-VII). Ma nessuno sembra sia d'accordo con questa definizione....
A Vespa preferisco Lambretta,
e Biondina a Brunetta .

Messaggio di hereistay il Ago 11 2011, 15:39
Altro ma ci sei o ci fai? credo che gente come te faccia bene a cancellarsi dal forum

Se sei anche tu di questa opinione evita di farmi delle domande

Avatar utente
silente
Maestro
Maestro
Messaggi: 5493
Iscritto il: 23 apr 2007, 09:53

Re: arpeggio giusto?

Messaggio da silente » 29 nov 2008, 00:58

Ueeeeeeeeeee!!! ciao Paolo, era un po' che non ti si vedeva. Come è andato il ciclo di elettroshock? Ha poi dato i risultati sperati? :Very Happy:
ImmagineIl Cantagallo Podcast

Avatar utente
Angus9046
Esperto
Esperto
Messaggi: 946
Iscritto il: 08 set 2008, 00:33
Località: Oderzo (TV)

Re: arpeggio giusto?

Messaggio da Angus9046 » 29 nov 2008, 13:02

silente ha scritto:Ueeeeeeeeeee!!! ciao Paolo, era un po' che non ti si vedeva. Come è andato il ciclo di elettroshock? Ha poi dato i risultati sperati? :Very Happy:
haha ebbene sì, è tornato, ieri ho fatto una faccia tipo ----> O.O'''
però... mi diverto troppo quando gli rispondi silente xD sei il mio idolo
Podcast
Podcast


Rispondi
  • Argomenti simili
    Risposte
    Visite
    Ultimo messaggio

Chi c’è in linea

Visitano il forum: Nessuno e 3 ospiti