Aiuto tab!

Di tutto di più sul suonare la chitarra
Rispondi
gulyzck
Nuovo nel Forum
Nuovo nel Forum
Messaggi: 2
Iscritto il: 27 set 2010, 22:26

Aiuto tab!

Messaggio da gulyzck » 27 set 2010, 22:53

Ciao ragazzi sto cercando di buttar giù la tab della canzone Tigersuit dei Raein io fino ad ora sono riuscito a scrivere questo

Codice: Seleziona tutto

Intro
e---------------------------------------------------------------------------|
B-------8--8-----------------------10-10-10-10-10----------------------|
G------------11-11-11-11--------11-------------------------------------|
D-9--9--9--9--9--9--9--9------------------------------------------------|
A-7--7--7--7--7--7--7--7--10-10-10-10-10-10-10-10-----------------|
D----------------------------10-10-10-10-10-10-10-10-----------------|

[0:56]
e-----------------------------
B-----------------------------
G-----------------------------
D-7-7-7-5-5-5-8-8-8-7-7-7-
A-5-5-5-5-5-5-5-5-5-5-5-5-
D------------------------------
Mi servirebbe una mano per farla completa ecco il video http://www.youtube.com/watch?v=mgWKwkunV0M


Rispondi
  • Argomenti simili
    Risposte
    Visite
    Ultimo messaggio

Chi c’è in linea

Visitano il forum: Nessuno e 4 ospiti