TAB IMPROVVISATA CANZONE DI NOTTE N2 F.GUCCINI

Di tutto di più sul suonare la chitarra

Moderatori: David, forons, avanzo, lespaul

Rispondi
daniele_3000
Nuovo nel Forum
Nuovo nel Forum
Messaggi: 2
Iscritto il: 21 dic 2007, 22:15

TAB IMPROVVISATA CANZONE DI NOTTE N2 F.GUCCINI

Messaggio da daniele_3000 » 21 dic 2007, 22:23

Ciao,sono nuovo del forum,premetto che amo la musica di guccini o de andre,ora io ho comprato un libro di spartiti con linea melodica su guccini,ma nn riesco a rivacarne le note da suonare per canzone da notte n2 per eseguire l'arpeggio dell'introduzione,così sugli accordi trovati ed usando il capotasto al 5 tasto ho presunto:

ladim7
---3-------3----------------3----------3---------------|Mi cantino
----------------1-----------------------------1---------l
-------2------------2-------------2----------------2---l 1°BATTUTA
---------------------------------------------------------l
---------------------------------------------------------l
---------------------------------------------------------l Mi basso

Sol--------------------------------Sol7
--------------3------------------1-0-1-----------------l
---------0---------0-------------------------0----------l
-------------------------0-------------------------0-----l 2°BATTUTA
----------------------------------------------------------l
----------------------------------------------------------l
----3-----------------------------------------------------l


FA------------------------------FA
------------------------------l----------------------------l
---------1--------------1----l---------1---------1------l
------------------------------l----------------------------l 3°-4°BATTUTA
----3------------3-----------l----------------------------l
------------------------------l----3------------3---------l
------------------------------l----------------------------l

on vorrei avere scritto assurdità, per chiarire ho scritto queste note da suonare tenendo presente il tasto che premevo mentre ero nella posizione dell'accordo nella rispettiva battuta,e la corda associata a questo tasto;Dove c'è il sol 7 in particolare i tasti 1 0 1,si deve fare un rapidissimo movimento ad alzare l'indice ed abbassarlo quasi immediatamente per dare un effetto di passaggio,transizione nella prima corda.Nel fa invece,c'è una specie di stoppato quando si suona la 2 corda al 1 tasto alzando leggermente il polso.Per quando riguarda la parte parlata li uso un arpeggio toccando il basso dell'accordo e poi le ultime tre corde in successione partendo dalla + alta il mi cantino
A me sembra praticamente uguale,ho postato le prime 4 battute dell'intro perchè cmq si ripete dopo con qualke variazione cmq ora posto il video:

http://it.youtube.com/watch?v=iFiLRYW4rNQ


Avatar utente
David
Amministratore
Amministratore
Messaggi: 5941
Iscritto il: 07 apr 2006, 22:11
Località: Villafrati (Pa)

Re: TAB IMPROVVISATA CANZONE DI NOTTE N2 F.GUCCINI

Messaggio da David » 22 dic 2007, 11:53

Ciao e benvenuto al Forum di Neesk :Very Happy:
Sosto in Tablature :ciauz:

daniele_3000
Nuovo nel Forum
Nuovo nel Forum
Messaggi: 2
Iscritto il: 21 dic 2007, 22:15

Re: TAB IMPROVVISATA CANZONE DI NOTTE N2 F.GUCCINI

Messaggio da daniele_3000 » 22 dic 2007, 21:38

Grazie ma dove è che l'avresti spostato io nn vedo niente?
Hai scritto sosto??


Rispondi
  • Argomenti simili
    Risposte
    Visite
    Ultimo messaggio

Chi c’è in linea

Visitano il forum: Nessuno e 5 ospiti