Scala pentatonica maggiore: diteggiature

Di tutto di più sul suonare la chitarra

Moderatori: David, forons, avanzo, lespaul

Rispondi
Platone
Principiante
Principiante
Messaggi: 16
Iscritto il: 11 lug 2006, 20:19

Scala pentatonica maggiore: diteggiature

Messaggio da Platone » 20 lug 2006, 23:03


DITEGGIATURA n 1:

------T----------4------ Mi cantino
------2----------4------
--1----------3------------
--1--------------T------
--1--------------4-------
------T----------4------ Mi basso

DITEGGIATURA n 2:

-------2---- -----3------------- Mi cantino
-------2----------------T------
--1---------------3-------------
-- ----T----------3-------------
-------2----------3--------------
-------2----------3-------------- Mi basso

DITEGGIATURA n 3:

--1---- ----------4------ Mi cantino
------ T ---------4------
--1-----------3------------
--1-----------3---- ------
--1-------------- T-------
--1---------------4------ Mi basso


DITEGGIATURA n 4:

------2---- --------4------ Mi cantino
------2-------------4------
--1-----------------T------
--1-----------------4-------
------T------------ 4-------
------2-------------4------ Mi basso


DITEGGIATURA n 5:

----1---------------T---- Mi cantino
----1---------------4-----
----T----------3---------
----1----------3---------
----1----------3---------
----1----------------T ---- Mi basso

Per la pentatonica(T 2 3 5 6) ho trovato queste tab ma nn so come interpretarle
Esattamente come devo interpretare queste tab??
I num sono le dita giusto? Ma qual'è l'ordine per suonarle??cioè..la n°5 il parto a fare quale T per prima e poi quale è la prima nota dopo? Il primo uno sull' E basso o quello sull'E cantino??
Magari è una cavolata ma nn riesco a capire...
Mi hanno detto questo
La n.5 la devi suonare così
----------------------1-4------------------
------------------1-4------------------------
--------------1-3-----------------------
----------1-3-----------------------------
------1-3----------------------------------
--1-4-------------------------------------- (corda più GROSSA)

Le 6 righe orizzontali sono le 6 corde , i numeri rappresentano i tasti nella quale le devi premere... quindi suoni la SESTA corda (grossa) al primo tasto ,poi quarto ; QUINTA corda al primo tasto,poi terzo... e così via
cioà la 4 per caso è così??

----------------------2-4------------------
------------------2-4------------------------
--------------1-4-----------------------
----------1-4-----------------------------
------2-4----------------------------------
--2-4-------------------------------------- (corda più GROSSA)


grazie mille per ogni tua chiarificazione e tempo per scriverla..[/quote]
Due cose sono infinite: l'universo e la stupidità umana(Albert Einstein)


Avatar utente
David
Amministratore
Amministratore
Messaggi: 5941
Iscritto il: 07 apr 2006, 22:11
Località: Villafrati (Pa)

Messaggio da David » 21 lug 2006, 10:09

Ciao Platone,
hai ben capito.
Questa "T" forse ti fa confondere. La "T" rappresenta la Tonica, ovvero la pricipale, ovvero la nota che da il nome alla scala.


Nella Tab non è indicato il taso dove devi premere, lo devi cercare tu.

Per facilitare la comprensine segui questo schema

"Tono" "Tono" "Tono e mezzo" "Tono" "Tono e mezzo"


Quindi dopo la "T", o prima, ci deve essere un'intervallo con la seconda nota di 1 Tono.

Chiaro?

Platone
Principiante
Principiante
Messaggi: 16
Iscritto il: 11 lug 2006, 20:19

Messaggio da Platone » 21 lug 2006, 10:24

David ha scritto: Per facilitare la comprensine segui questo schema

"Tono" "Tono" "Tono e mezzo" "Tono" "Tono e mezzo"


Quindi dopo la "T", o prima, ci deve essere un'intervallo con la seconda nota di 1 Tono.

Chiaro?
Me lo spieghi meglio facendo un esempio sulle mie tab??
Grazie ancora per la tua disponibilità e preparazione
Due cose sono infinite: l'universo e la stupidità umana(Albert Einstein)

Avatar utente
David
Amministratore
Amministratore
Messaggi: 5941
Iscritto il: 07 apr 2006, 22:11
Località: Villafrati (Pa)

Messaggio da David » 21 lug 2006, 10:55

DITEGGIATURA n 1:

------T----------4------ Mi cantino
------2----------4------
--1----------3------------
--1--------------T------
--1--------------4-------
------T----------4------ Mi basso
Allora la "T" è la principale, quindi seguendo:
"Tono=T" "Tono=2 nota" "Tono e mezzo=3 nota" "Tono=4 nota" "Tono e mezzo=5 nota"
Nella 6 corda della tab, tra "T" e 4 ci deve essere un intervallo di 1 tono, ovvero due tasti nella chitarra.

Quindi T=2, chiaro?

Nella 4 corda della tab tra 1 e "T" ci deve essere un'intervallo di un tono e mezzo

Quindi T=4

Ti potresti aiutare anche con le posizioni delle ottave nella tastiera, ovvero le posizioni di tutte le T :wink:

Platone
Principiante
Principiante
Messaggi: 16
Iscritto il: 11 lug 2006, 20:19

Messaggio da Platone » 21 lug 2006, 13:40

quindi

DITEGGIATURA n 4:

------2---- --------4------ Mi cantino
------2-------------4------
--1-----------------T------
--1-----------------4-------
------T------------ 4-------
------2-------------4------ Mi basso

è

----------------------------------2--4---- Mi cantino
-----------------------------2-4----------
------------------------1-1---------------
-------------------1-4--------------------
------------1-4---------------------------
------2-4--------------------------------- Mi basso
Due cose sono infinite: l'universo e la stupidità umana(Albert Einstein)


Avatar utente
David
Amministratore
Amministratore
Messaggi: 5941
Iscritto il: 07 apr 2006, 22:11
Località: Villafrati (Pa)

Messaggio da David » 21 lug 2006, 13:49

No, cosi:
DITEGGIATURA n 4:

------2---- --------4------ Mi cantino
------2-------------4------
--1-----------------T------
--1-----------------4-------
------T------------ 4-------
------2-------------4------ Mi basso
diventa

DITEGGIATURA n 4:

------2---- --------4------ Mi cantino
------2-------------4------
--1----------------4(T)----
--1-----------------4------
------2(T)------------ 4---
------2-------------4------ Mi basso

ovvero:

----------------------------------2--4---- Mi cantino
-----------------------------2-4----------
------------------------1-4---------------
-------------------1-4--------------------
------------2-4---------------------------
------2-4--------------------------------- Mi basso

:wink:

Platone
Principiante
Principiante
Messaggi: 16
Iscritto il: 11 lug 2006, 20:19

Messaggio da Platone » 21 lug 2006, 13:52

indi

DITEGGIATURA n 2:

-------2---- -----3------------- Mi cantino
-------2----------------T(4)------
--1---------------3-------------
-- ----T(2)----------3-------------
-------2----------3--------------
-------2----------3-------------- Mi basso

=

----------------------------------2--3---- Mi cantino
-----------------------------2-4----------
------------------------1-3---------------
-------------------2-3--------------------
------------2-3---------------------------
------2-3--------------------------------- Mi basso
Due cose sono infinite: l'universo e la stupidità umana(Albert Einstein)

Avatar utente
David
Amministratore
Amministratore
Messaggi: 5941
Iscritto il: 07 apr 2006, 22:11
Località: Villafrati (Pa)

Messaggio da David » 21 lug 2006, 14:05

Quella giusta della 2(è scritto sbagliato) è:
DITEGGIATURA n 2:

-------2---- -----4------------- Mi cantino
-------2----------------5------
--1---------------4-------------
-- ---(2)T--------4-------------
-------2----------4--------------
-------2----------4-------------- Mi basso
quindi:

----------------------------------2--4---- Mi cantino
-----------------------------2-5----------
------------------------1-4---------------
-------------------2-4--------------------
------------2-4---------------------------
------2-4--------------------------------- Mi basso

E' chiaro? :wink:


Rispondi
  • Argomenti simili
    Risposte
    Visite
    Ultimo messaggio

Chi c’è in linea

Visitano il forum: Nessuno e 6 ospiti