Riprodurre un pezzo e analizzarlo: quali effetti/note/ecc?

Di tutto di più sul suonare la chitarra

Moderatori: David, forons, avanzo, lespaul

Rispondi
Avatar utente
Cherpitel
Apprendista
Apprendista
Messaggi: 121
Iscritto il: 18 ott 2011, 01:26

Riprodurre un pezzo e analizzarlo: quali effetti/note/ecc?

Messaggio da Cherpitel » 23 mag 2012, 02:47

Vediamo se riuscirò ad esporre il mio quesito in maniera comprensibile!

Allora.. adoro la intro (dura sino a 00.58) di questa demo di una dei miei gruppi punk preferiti:

http://www.youtube.com/watch?v=PGtV1Twfaac

Ok. E' una semplicissima intro di un gruppo punk. Non riesco a riprodurla in maniera soddisfacente!

L'unica tab che ho trovato online e che reputo sbagliata è questa:

e|------------------------------------------------------------------------
B|----11---11---11---11---11---11------------------------------------
G|--8----8----8----8----8----8-----7777-------------------------------
D|------------------------------------------------------------------------
A|------------------------------------------------------------------------
E|------------------------------------------------------------------------

Io penso sia così invece:

e|------19-----19-----19-----19--------------------19-----19---------9----9----9----9---------
B|--17-----17-----17-----17-----16-16-16-16-17-----17-----17/-7----7----7----7----6-6-6-6
G|--------------------------------------------------------------------------------------------------
D|--------------------------------------------------------------------------------------------------
A|--------------------------------------------------------------------------------------------------

Ok, alidilà della note da suonare.. come potrei riprodurre il suono? In OD o in distorto? Ho provato mille volte con ambedue ma con risultati scadenti.
E poi.. in base a quale regola è stata scritta questa intro? A caso oppure è un qualcosa di esistente?

OK, non sono stato chiaro. Aaaaah ho mille pensieri e non riesco ad esporli!
E|--------------------------------------------------------------------------------------------------


Avatar utente
odos
Maestro
Maestro
Messaggi: 2733
Iscritto il: 21 gen 2008, 20:33

Re: Riprodurre un pezzo e analizzarlo: quali effetti/note/ecc?

Messaggio da odos » 23 mag 2012, 10:44

può essere che la tab che hai trovato in rete sia giusta (anche se mezzo tono sotto :dubbioso: ) e venga usato un "octaver" come effetto? Non sono sicuro ma assomiglia molto al suono di un octaver o pitch shifter o come si chiama...
Le mie Jam su Neesk:

Podcast


"...in ognuno di noi dorme un genio. E sta sveglio un idiota"

blacky123
Maestro
Maestro
Messaggi: 1949
Iscritto il: 26 ago 2011, 18:33

Re: Riprodurre un pezzo e analizzarlo: quali effetti/note/ecc?

Messaggio da blacky123 » 23 mag 2012, 14:15

La tab non mi pare un problema. Infatti, a parte ciò che dice ODOS circa il mezzo tono sotto e l'cotaver, credo abbia ragione tu. Inizia nella posizione alta poi abbassa di un'ottava. Naturalmente secondo me. Circa il suono, è difficile. Pare un distorsore con molta enfasi sugli alti. Sempre secondo me. NAturalmente non ti verrà mai uguale se non hai lo stesso distorsore (oltre che lo stesso "il resto"). :ciauz:

Avatar utente
Cherpitel
Apprendista
Apprendista
Messaggi: 121
Iscritto il: 18 ott 2011, 01:26

Re: Riprodurre un pezzo e analizzarlo: quali effetti/note/ecc?

Messaggio da Cherpitel » 25 mag 2012, 14:38

Grazie ragazzi! Oggi smanetto un po con il multieffetto e l'ampli e vedo se riesco a combinare qualcosa di buono :D


Rispondi
  • Argomenti simili
    Risposte
    Visite
    Ultimo messaggio

Chi c’è in linea

Visitano il forum: Nessuno e 5 ospiti