power chords ?

Di tutto di più sul suonare la chitarra

Moderatori: David, forons, avanzo, lespaul

Rispondi
elettro
Principiante
Principiante
Messaggi: 14
Iscritto il: 10 set 2007, 14:41

power chords ?

Messaggio da elettro » 10 set 2007, 14:55

Ciao a tutti sn un chitarrista alle prime armi
e sto cercando di capire qualcosa sui power-chords
se per piacere potreste spiegarmi come si formano o elencarmene alcuni?
grazie in anticipo


Avatar utente
avanzo
Moderatore
Moderatore
Messaggi: 3715
Iscritto il: 02 ago 2007, 18:16
Località: Roma

Re: power chords ?

Messaggio da avanzo » 10 set 2007, 15:18


Avatar utente
David
Amministratore
Amministratore
Messaggi: 5941
Iscritto il: 07 apr 2006, 22:11
Località: Villafrati (Pa)

Re: power chords ?

Messaggio da David » 10 set 2007, 19:16

elettro ha scritto:Ciao a tutti sn un chitarrista alle prime armi
e sto cercando di capire qualcosa sui power-chords
se per piacere potreste spiegarmi come si formano o elencarmene alcuni?
grazie in anticipo
Ciao e Benvenuto al Forum di Neesk :Very Happy:

elettro
Principiante
Principiante
Messaggi: 14
Iscritto il: 10 set 2007, 14:41

Re: power chords ?

Messaggio da elettro » 10 set 2007, 20:19

allora per spiegarmi meglio
e | --------------------------------------------------------------------|
B |---------------------------------------------------------------------|
G |---------------------------------------------------------------------|
D |--2---3---4---5---6---7---8---9---10--11--12---13---14-- -----|
A |--2---3---4---5---6---7---8---9---10--11--12---13---14--------|
E |--0---1---2---3---4---5---6---7---8---9---10---11---12---------|
mi fa fa# sol sol# la la# si do do# re re# mi

fin quì c'ero arrivato

ma a me interessava sapere se esistono power chord cn il primo dito sulla corda La
oppure se esisteva qualche altra treconica attinente ai power chords

Avatar utente
Frank 91
Maestro
Maestro
Messaggi: 1134
Iscritto il: 16 lug 2007, 20:32

Re: power chords ?

Messaggio da Frank 91 » 10 set 2007, 20:27

elettro ha scritto:allora per spiegarmi meglio
e | --------------------------------------------------------------------|
B |---------------------------------------------------------------------|
G |---------------------------------------------------------------------|
D |--2---3---4---5---6---7---8---9---10--11--12---13---14-- -----|
A |--2---3---4---5---6---7---8---9---10--11--12---13---14--------|
E |--0---1---2---3---4---5---6---7---8---9---10---11---12---------|
mi fa fa# sol sol# la la# si do do# re re# mi

fin quì c'ero arrivato

ma a me interessava sapere se esistono power chord cn il primo dito sulla corda La
oppure se esisteva qualche altra treconica attinente ai power chords
Ci sono anche altri Power Chord. ES:

e----------------------------------------------
B----------------------------------------------
G-2--3--4---Ecc.
D-2--3--4---Ecc.
A-0--1--2---Ecc.
E----------------------------------------------
La-La#-Si-Ecc.

Questo per quanto riguarda La.

e----------------------------------------------
B-3--4--5---Ecc.
G-2--3--4---Ecc.
D-0--1--2---Ecc.
A---------------------------------------------
E----------------------------------------------
Re-Re#-Mi-Ecc.

Questo per quanto riguarda Re.


Ciaooo


Avatar utente
avanzo
Moderatore
Moderatore
Messaggi: 3715
Iscritto il: 02 ago 2007, 18:16
Località: Roma

Re: power chords ?

Messaggio da avanzo » 11 set 2007, 01:01

tecniche particolari non ce ne sono...sono semplicemente accordi composti da fondamentale, 5a e 8a...sono usati spesso anche powerchords senza l'8a (quindi su 2 corde) o anche con la 5a stoppata, così:

--3---6---8---
--x---x---x---
--1---4---6---

il pregio (o difetto) di queste figure è che non avendo la 3a, non sono nè maggiori nè minori...


Rispondi
  • Argomenti simili
    Risposte
    Visite
    Ultimo messaggio

Chi c’è in linea

Visitano il forum: Nessuno e 2 ospiti