Le pentatoniche, quali sono?

Di tutto di più sul suonare la chitarra

Moderatori: David, forons, avanzo, lespaul

Rispondi
Avatar utente
Jon Schaffer
Apprendista
Apprendista
Messaggi: 100
Iscritto il: 30 set 2007, 18:18
Località: Genova
Contatta:

Le pentatoniche, quali sono?

Messaggio da Jon Schaffer » 29 nov 2007, 11:30

Da autoditatta che ancor sono, mi sento spesso parlare di pentatoniche. Quali sarebbero?
- Jon Schaffer -

http://www.myspace.com/typhonhell <--- mio myspace musica ambient/sperimentale


Avatar utente
avanzo
Moderatore
Moderatore
Messaggi: 3715
Iscritto il: 02 ago 2007, 18:16
Località: Roma

Re: Le pentatoniche, quali sono?

Messaggio da avanzo » 29 nov 2007, 13:24

la scala pentatonica è quella composta da 1a,2a,3a,5a e 6a...

Avatar utente
Jon Schaffer
Apprendista
Apprendista
Messaggi: 100
Iscritto il: 30 set 2007, 18:18
Località: Genova
Contatta:

Re: Le pentatoniche, quali sono?

Messaggio da Jon Schaffer » 29 nov 2007, 14:46

avanzo ha scritto:la scala pentatonica è quella composta da 1a,2a,3a,5a e 6a...
mmm..cioe?
- Jon Schaffer -

http://www.myspace.com/typhonhell <--- mio myspace musica ambient/sperimentale

Avatar utente
brainstormer
Apprendista
Apprendista
Messaggi: 152
Iscritto il: 22 nov 2007, 10:56
Località: Roma

Re: Le pentatoniche, quali sono?

Messaggio da brainstormer » 29 nov 2007, 15:34


Avatar utente
Jon Schaffer
Apprendista
Apprendista
Messaggi: 100
Iscritto il: 30 set 2007, 18:18
Località: Genova
Contatta:

Re: Le pentatoniche, quali sono?

Messaggio da Jon Schaffer » 29 nov 2007, 16:22

Se io scrivessi la scala di Do in tab sarebbe qst(salvo errori)

----------------------------------------------2--3--5----------
---------------------------------------3--5--------------------
-----------------------------2--4--5---------------------------
-------------------2--4--5------------------------------------- e poi torna indietro
---------2--3--5-----------------------------------------------
--3--5---------------------------------------------------------


la pentatonica che note avrebbe in meno?
- Jon Schaffer -

http://www.myspace.com/typhonhell <--- mio myspace musica ambient/sperimentale


Avatar utente
avanzo
Moderatore
Moderatore
Messaggi: 3715
Iscritto il: 02 ago 2007, 18:16
Località: Roma

Re: Le pentatoniche, quali sono?

Messaggio da avanzo » 29 nov 2007, 16:38

----------------------------------------------------------(2)--3--5----------
--------------------------------------------------3--5--------------------
------------------------------------2--4--(5)---------------------------
----------------------2--(4)--5------------------------------------- e poi torna indietro
---------2--(3)--5-----------------------------------------------
--3--5---------------------------------------------------------

tra parentesi quelle che nelle pentatonica non devi suonare..

ps: la scala è di Sol, non di Do :esatto:

Avatar utente
Jon Schaffer
Apprendista
Apprendista
Messaggi: 100
Iscritto il: 30 set 2007, 18:18
Località: Genova
Contatta:

Re: Le pentatoniche, quali sono?

Messaggio da Jon Schaffer » 29 nov 2007, 16:47

si ho letto male!!!!comunque grazie!
- Jon Schaffer -

http://www.myspace.com/typhonhell <--- mio myspace musica ambient/sperimentale

Avatar utente
jack_trinidad
Maestro
Maestro
Messaggi: 3982
Iscritto il: 10 ago 2007, 23:47

Re: Le pentatoniche, quali sono?

Messaggio da jack_trinidad » 03 dic 2007, 15:49

avanzo ha scritto:
ps: la scala è di Sol, non di Do :esatto:
Io sono ignorante e perciò non ho parlato...ma mi sembrava strano...comunque volevo evitare brutte figure :lollol: :risatona: :beer: :lollol:
Non ho trovato parole per dire quello che pensavo, ma ci sono riuscito con sole 5 note...
ma200360 ha scritto:E ricordati che la velocità non è tutto, anzi !
ma200360 ha scritto:Il blues è un tizio che va in un locale, prende una birra e scarica la macchina, monta l' amplificatore,
controlla la chitarra, svolge i jack, sistema l' asta del microfono, saluta il batterista che è appena
arrivato e gli chiede se ha bisogno di una mano, prova la pedaliera per vedere se funziona tutto, si
mette d' accordo col cantante per la scaletta, intanto arriva il bassista che è appena stato mollato dalla
tipa e lui va a vedere come va, nel frattempo il batterista ha montato tutto, e il cantante ha appena
finito di cambiare il fusibile di una cassa che si era bruciato. A quel punto lì, "One, two, three, four" e
parte Kansas City.

Avatar utente
TRA$H
Apprendista
Apprendista
Messaggi: 140
Iscritto il: 05 dic 2007, 20:54

Re: Le pentatoniche, quali sono?

Messaggio da TRA$H » 05 dic 2007, 21:19

so ke sn scale dove figurano solo 5 note le pentatoniche...correggetemi se sbaglio
My instruments:
elettrica:cort KX custom
ampli:CRATE FW 65

Avatar utente
avanzo
Moderatore
Moderatore
Messaggi: 3715
Iscritto il: 02 ago 2007, 18:16
Località: Roma

Re: Le pentatoniche, quali sono?

Messaggio da avanzo » 06 dic 2007, 02:42

TRA$H ha scritto:so ke sn scale dove figurano solo 5 note le pentatoniche...correggetemi se sbaglio
non sbagli (penta=5)...per farla breve, è come la scala maggiore, ma senza il 4° e il 7° grado...

es. Do
scala maggiore ---> do re mi fa sol la si
scala pentatonica --> do re mi sol la

Avatar utente
TRA$H
Apprendista
Apprendista
Messaggi: 140
Iscritto il: 05 dic 2007, 20:54

Re: Le pentatoniche, quali sono?

Messaggio da TRA$H » 06 dic 2007, 13:36

in pratica nn suoni il fa e il si...ci sn altri tipi di scale oltre a maggiori o pentatoniche?
My instruments:
elettrica:cort KX custom
ampli:CRATE FW 65

Avatar utente
ambaradam
Maestro
Maestro
Messaggi: 2301
Iscritto il: 12 apr 2007, 10:27
Località: Roma

Re: Le pentatoniche, quali sono?

Messaggio da ambaradam » 06 dic 2007, 15:02

premetto che ci possa essere qualche errore (i modelli delle scale cmq sono giusti)

ci son 5 tipi di scale pentatoniche:

1 modello pentatonica maggiore (sol)


---------------------------------------------------3---5--
------------------------------------------3---5---------
----------------------------------2---4------------------
------------------------2----5-------------------------------
----------------2---5---------------------------------------
------3---5------------------------------------------------

2 modello (la)

---------------------------------------------------5---7------
-------------------------------------------5----8-------------
-------------------------------------4---7--------------------
------------------------------5---7---------------------------
-----------------------5---7---------------------------------
----------------5---7-------------------------------------------


3 modello (si)

---------------------------------------------7---10------------
--------------------------------------8---10--------------------
-------------------------------7---9---------------------------
------------------------7---9----------------------------------
-----------------7---9-----------------------------------------
--------7---10--------------------------------------------------


4 modello (re)

-------------------------------------------------------10---12-----
----------------------------------------------10---12------------
--------------------------------------9---12---------------------
-----------------------------9---12------------------------------
------------------10---12-----------------------------------------
--------10---12----------------------------------------------------


5 modello pentatonica minore (mi)

----------------------------------------------------12---15-----------
-------------------------------------------12---15------------------
----------------------------------12---14----------------------------
-------------------------12---14-----------------------------------
----------------12---14--------------------------------------------
-------12---15---------------------------------------------------

partendo da quella di sol, puoi passare a le altre scritte dopo, infatti se ci fai caso le toniche delle scale (sol la si re mi) formano la pentatonica maggiore di sol.
offro-vendo-f47/vendo-fender-strato-mex ... 12112.html Se volete una Fender mex mancina e/o un ampli Fender Frontman, a Roma

Avatar utente
TRA$H
Apprendista
Apprendista
Messaggi: 140
Iscritto il: 05 dic 2007, 20:54

Re: Le pentatoniche, quali sono?

Messaggio da TRA$H » 06 dic 2007, 15:09

ma ci sn anke anke le pentatoniche minori?
My instruments:
elettrica:cort KX custom
ampli:CRATE FW 65

Avatar utente
David
Amministratore
Amministratore
Messaggi: 5941
Iscritto il: 07 apr 2006, 22:11
Località: Villafrati (Pa)

Re: Le pentatoniche, quali sono?

Messaggio da David » 06 dic 2007, 15:18

TRA$H ha scritto:ma ci sn anke anke le pentatoniche minori?
Certo che si :ciauz:


Rispondi
  • Argomenti simili
    Risposte
    Visite
    Ultimo messaggio

Chi c’è in linea

Visitano il forum: Nessuno e 6 ospiti