cos'e la tecnica su questa tab?

Di tutto di più sul suonare la chitarra

Moderatori: David, forons, avanzo, lespaul

Rispondi
Toxikk-inside
Nuovo nel Forum
Nuovo nel Forum
Messaggi: 1
Iscritto il: 07 mar 2007, 22:06

cos'e la tecnica su questa tab?

Messaggio da Toxikk-inside » 07 mar 2007, 22:46

ciao,volevo chiedere se qualcuno mi poteva spigare brevementealcube delle tecniche utilizzate in questo solo(Fire di jimi hendrix)
Vorrei sapere cosa si intende per cb:compound bend...come si fa?
ed anche hb
grazie

Guitar Solo: N.C. (E)

e--------12v------12---------------------------------12v-----12---------------------------
B--15b-------15hb------(15cb)-(15)------------15b-----15b-----15--12--------12--15bv-
G---------------------------------------12-(12v)------------------------------14b------------
D----------------------------------------------------------------------------------------------
A----------------------------------------------------------------------------------------------
E----------------------------------------------------------------------------------------------


e-------12-----12------15------15-----------------12------12--------------------------
B--15b----15hb--15cb----15cb----15hb(15)-15b----15hb--(15)s12------12---------
G--------------------------------------------------------------------------14b---12v-(12)\
D-----------------------------------------------------------------------------------------
A------------------------------------------------------------------------------------------
E-----------------------------------------------------------------------------------------


7s9 slide from 7th fret to 9th
7\ slide from 7th fret down
7/ slide from 7th fret up
7bh bend 7th and hold till ghost note or
7b bend 7th 1 full step
10v vibrato 10th
15bv full bend and vibrato
15cb compound bend and release (every note picked) (full)3qb
bend 1/4step
3wb half bend


inoltre per cosa sta la lettera r in questa tab? puo essere reverse?
qualcuno mi spiega come si fa?(come si suona questa nota?)

jimi hendrix all long the watchtower solo

E---------------------------------------------------------------------
B-----11--13b-13b-13b-13b~~--13b-r13--p11--8----------------
G-/12--------------------------------------------------10-10-10-10~~-
D----------------------------------------------------------- -------------
A--------------------------------------------------------------------------
E----------------------------------------------------------- ---------------


E------------------------------------------------------------------------
B------------------------------------------------------------------------
G------8--10--10b-r10-10b~~~~-10b~-r10-8-----10p8p5-11b~~-
D-/10----------------------------------------------10--------------
A---------------------------------------------------------------------------
E---------------------------------------------------------------------------



qualcuno mi aiuti!!!!!
Grazie :ciauz:


Avatar utente
Enriquez
Maestro
Maestro
Messaggi: 2290
Iscritto il: 28 giu 2006, 03:05
Località: L'Aquila

Messaggio da Enriquez » 07 mar 2007, 23:33

:welcome: benvenuto nel forum.
l'inconveniente di questo tipo di tab, abbastanza spartane è una nomenclatura non universale. quindi fermo restando che ascoltare l'assolo è molto più utile per riprodurlo una volta che conosci le note, ti posso dire che di per certo "r" sta per "release", ovvero una volta fatto il bending torni nella posizione di partenza, rilasci la corda in pratica.
"cb" dovrebbe voler dire che la nota la fai in bending e successivamente in release, plettrando entrambe le volte.
:ciauz:

Avatar utente
David
Amministratore
Amministratore
Messaggi: 5941
Iscritto il: 07 apr 2006, 22:11
Località: Villafrati (Pa)

Messaggio da David » 08 mar 2007, 10:46

Ciao e Benvenuto al Forum di Neesk. :Very Happy:

Segui quanto detto da Enriquez :ciauz:


Rispondi
  • Argomenti simili
    Risposte
    Visite
    Ultimo messaggio

Chi c’è in linea

Visitano il forum: Nessuno e 2 ospiti