Come traslarle una scala

Di tutto di più sul suonare la chitarra

Moderatori: David, forons, avanzo, lespaul

Platone
Principiante
Principiante
Messaggi: 16
Iscritto il: 11 lug 2006, 20:19

Come traslarle una scala

Messaggio da Platone » 13 lug 2006, 10:21

Qui parlate di traslare una scala per variare la tonalità...
So che la domanda può sembrare banale, ma mi hanno detto che nn c'è domanda banale ma bensì le risposte date ad essa, quindi vi chiedo: cosa intendeve per traslare e come si realizza

Grazie ancora per le risposte
Ultima modifica di Platone il 13 lug 2006, 10:30, modificato 1 volta in totale.


Avatar utente
David
Amministratore
Amministratore
Messaggi: 5941
Iscritto il: 07 apr 2006, 22:11
Località: Villafrati (Pa)

Messaggio da David » 13 lug 2006, 10:27

Ciao Platone,
infatti non c'è nulla di banale......
Traslare una scale vuol dire cambiarla di tonalità. Nella chitarra traslare una scala è più semplice rispetto al pianoforte, perchè equivale a traslare lo stesso modello di diteggiatura lungo i tasti, cosa che non avviene nel piano, perchè il modello cambia!

Se sposti (nella chitarra) di due tasti il modello di una scala hai cambiato di un tono, quindi hai traslato di un tono la sclala.... :wink:

Platone
Principiante
Principiante
Messaggi: 16
Iscritto il: 11 lug 2006, 20:19

Messaggio da Platone » 13 lug 2006, 10:33

|--------------------------------------------------------------
|------------------------------------------0--1---------------
|---------------------------------0--2------------------------
|-------------------0-2--3-----------------------------------
|---------------3---------------------------------------------
|-------------------------------------------------------------

Questa è una scala di C(Do)[cerco di imparare le note con i 2 nomi perchè in giro sono + comuni le notazioni non italiane)
Come traslo questa per esempio???

Tnks

Avatar utente
David
Amministratore
Amministratore
Messaggi: 5941
Iscritto il: 07 apr 2006, 22:11
Località: Villafrati (Pa)

Messaggio da David » 13 lug 2006, 10:42

Platone ha scritto:|--------------------------------------------------------------
|------------------------------------------0--1---------------
|---------------------------------0--2------------------------
|-------------------0-2--3-----------------------------------
|---------------3---------------------------------------------
|-------------------------------------------------------------

Questa è una scala di C(Do)[cerco di imparare le note con i 2 nomi perchè in giro sono + comuni le notazioni non italiane)
Come traslo questa per esempio???

Tnks
Mettiamo che vogliamo traslarla a RE, quindi nella chitarra da Do a Re equvale a spostarsi di un tono quindi 2 tasti. Devi sommare ai numeri 2, quindi

|--------------------------------------------------------------
|------------------------------------------(0)2--(1)3---------------
|---------------------------------(0)2--(2)4------------------------
|-------------------(0)2-(2)4--(3)5-----------------------------------
|---------------(3)5---------------------------------------------
|-------------------------------------------------------------

Tra parentesi la scala di Do e i numeri accanto sono la scala di Re :wink:

Platone
Principiante
Principiante
Messaggi: 16
Iscritto il: 11 lug 2006, 20:19

Messaggio da Platone » 13 lug 2006, 10:45

E' così semplice??
Quindi Mi(E) sarebbe....
|--------------------------------------------------------------
|------------------------------------------4-----5------------
|---------------------------------4--6------------------------
|-------------------4-6--7-----------------------------------
|---------------7---------------------------------------------
|-------------------------------------------------------------

E devo stare attendo tra il mi-fa e il si-do che hanno un solo tasto...Giusto?


Avatar utente
David
Amministratore
Amministratore
Messaggi: 5941
Iscritto il: 07 apr 2006, 22:11
Località: Villafrati (Pa)

Messaggio da David » 13 lug 2006, 10:51

Platone ha scritto:E' così semplice??
Si è semplice!!! :D
Platone ha scritto: E devo stare attendo tra il mi-fa e il si-do che hanno un solo tasto...Giusto?
No. Devi traslare sempre così :wink:
Traslare una tonalità di un tono(o più toni) vuol dire spostare ogni singola nota di un tono.

Il MI, in quel caso diventa FA# :wink:

Platone
Principiante
Principiante
Messaggi: 16
Iscritto il: 11 lug 2006, 20:19

Messaggio da Platone » 13 lug 2006, 10:53

Sto cominciando a capire qualcosa...wow!

Cmq....così posso farmi tutte le scale, no??? E se voglio traslarle di 2 toni sono 4 tasti?

Avatar utente
David
Amministratore
Amministratore
Messaggi: 5941
Iscritto il: 07 apr 2006, 22:11
Località: Villafrati (Pa)

Messaggio da David » 13 lug 2006, 10:58

Platone ha scritto:Sto cominciando a capire qualcosa...wow! Cmq....così posso farmi tutte le scale, no???
Si imparando un modello, ad esempio il primo che hai postato, già sai tutte le scale di quel modello! :D
Platone ha scritto:E se voglio traslarle di 2 toni sono 4 tasti?
Si è proprio cosi

:wink:

Platone
Principiante
Principiante
Messaggi: 16
Iscritto il: 11 lug 2006, 20:19

Messaggio da Platone » 13 lug 2006, 11:00

Ti ringrazio moltissimo...sei un grande!
Un ultima domanda, per oggi: quanti sono i modelli fondamentali che dovrei imparare per saper suonare decentemente e non pensare di essere un chitarrista deprimente?
Due cose sono infinite: l'universo e la stupidità umana(Albert Einstein)

Avatar utente
David
Amministratore
Amministratore
Messaggi: 5941
Iscritto il: 07 apr 2006, 22:11
Località: Villafrati (Pa)

Messaggio da David » 13 lug 2006, 11:08

Platone ha scritto:Ti ringrazio moltissimo...sei un grande!
Un ultima domanda, per oggi: quanti sono i modelli fondamentali che dovrei imparare per saper suonare decentemente e non pensare di essere un chitarrista deprimente?
Figurati,grazie!
Qui trovi un bel pò di modelli della scal maggiore, sono riferiti in Do, ma poi sposti :D :

scale/scala_maggiore.htm
:wink:

Platone
Principiante
Principiante
Messaggi: 16
Iscritto il: 11 lug 2006, 20:19

Messaggio da Platone » 13 lug 2006, 13:38

Ho fatto uno schemino degli schemi...
Sono giusti???


-E|--------------------------------------------------------------
B|----------------------0--1-----------------------------------
G|-----------------0--2----------------------------------------
D|-------0--2--3----------------------------------------------
A|----3--------------------------------------------------------
+E|--------------------------------------------------------------
--

E|--------------------------------------------------------------
B|--------------------------------------------------------------
G|--------------------2--4--5---------------------------------
D|------0--2--3--5--------------------------------------------
A|---3---------------------------------------------------------
E|--------------------------------------------------------------
--

E|---------------------------5--7--8--------------------------
B|----------------5--6--8-------------------------------------
G|--------5--7------------------------------------------------
D|-------------------------------------------------------------
A|-------------------------------------------------------------
E|-------------------------------------------------------------
--


E|--------------------------------------------------------------
B|--------------------------------------------------------------
G|--------------------------------------------------------------
D|-------------------7--9--10---------------------------------
A|----0--7--8--10---------------------------------------------
E|--8-----------------------------------------------------------
--

E|--------------------------------------------------------------
B|-----------------------------10--12--13--------------------
G|----------------9--10--12----------------------------------
D|-----10--12-------------------------------------------------
A|--------------------------------------------------------------
E|--------------------------------------------------------------
--

E|------------12--13--14-------------------------------------
B|--13--15----------------------------------------------------
G|--------------------------------------------------------------
D|--------------------------------------------------------------
A|----------------------------12--14--15---------------------
E|--------------------------------------------------------------
Ultima modifica di Platone il 13 lug 2006, 13:50, modificato 1 volta in totale.
Due cose sono infinite: l'universo e la stupidità umana(Albert Einstein)

Avatar utente
David
Amministratore
Amministratore
Messaggi: 5941
Iscritto il: 07 apr 2006, 22:11
Località: Villafrati (Pa)

Messaggio da David » 13 lug 2006, 13:42

Si, ovviamente partendo dalla corda di Sol :wink:

Avatar utente
David
Amministratore
Amministratore
Messaggi: 5941
Iscritto il: 07 apr 2006, 22:11
Località: Villafrati (Pa)

Messaggio da David » 13 lug 2006, 14:21

Hai modificato? :D
Si, son giusti :wink:

Platone
Principiante
Principiante
Messaggi: 16
Iscritto il: 11 lug 2006, 20:19

Messaggio da Platone » 13 lug 2006, 14:26

quindi con questi schemi ho virtualmente le tutte le scale maggiori...giusto?
Per le minori c'è da fare un lavoro simile?
Due cose sono infinite: l'universo e la stupidità umana(Albert Einstein)

Avatar utente
David
Amministratore
Amministratore
Messaggi: 5941
Iscritto il: 07 apr 2006, 22:11
Località: Villafrati (Pa)

Messaggio da David » 13 lug 2006, 15:07

Platone ha scritto:quindi con questi schemi ho virtualmente le tutte le scale maggiori...giusto?
Per le minori c'è da fare un lavoro simile?
Si esatto! :D


Rispondi
  • Argomenti simili
    Risposte
    Visite
    Ultimo messaggio

Chi c’è in linea

Visitano il forum: Nessuno e 6 ospiti