Come traslarle una scala

Di tutto di più sul suonare la chitarra

Moderatori: David, forons, avanzo, lespaul

Platone
Principiante
Principiante
Messaggi: 16
Iscritto il: 11 lug 2006, 20:19

Messaggio da Platone » 14 lug 2006, 10:37

ho scoperto che maggiore e minore(naturale a quanto ho capito) sono così:

M: T T S T T T S

m: T S T T S T T

E che la m si forma sul 6° grado della M
Quindi io ho la scala maggiore di Re

Re(1) Mi(2) Fa#(3) Sol(4) La(5) Si(6) Do#(7) Re(8)

Da questa ottengo Si minore?
Una cosa tipo

Si(1) Do#(2) Re(3) Mi(4) Fa#(5) Sol(6) La(7) Si(8)

Poi devo trovarmi le diteggiature ma come discorso fila??
Due cose sono infinite: l'universo e la stupidità umana(Albert Einstein)


Avatar utente
David
Amministratore
Amministratore
Messaggi: 5941
Iscritto il: 07 apr 2006, 22:11
Località: Villafrati (Pa)

Messaggio da David » 14 lug 2006, 10:54

Platone ha scritto:ho scoperto che maggiore e minore(naturale a quanto ho capito) sono così:

M: T T S T T T S

m: T S T T S T T

E che la m si forma sul 6° grado della M
Quindi io ho la scala maggiore di Re

Re(1) Mi(2) Fa#(3) Sol(4) La(5) Si(6) Do#(7) Re(8)

Da questa ottengo Si minore?
Una cosa tipo

Si(1) Do#(2) Re(3) Mi(4) Fa#(5) Sol(6) La(7) Si(8)

Poi devo trovarmi le diteggiature ma come discorso fila??
Si si, giustissimo. Ogni scala Maggiore ha una relativa Minore. Quest'ultima si forma sul 6° grado :D

Quindi conoscendo una scala maggiore, conosci anche la sua relativa minore: le note sono le stesse! :wink:

Platone
Principiante
Principiante
Messaggi: 16
Iscritto il: 11 lug 2006, 20:19

Messaggio da Platone » 14 lug 2006, 10:57

finalmente sto capendoci qualcosa... :D:D
Ora passando al discorso diteggiature... li sono un po incasinato... :roll:
Due cose sono infinite: l'universo e la stupidità umana(Albert Einstein)

Platone
Principiante
Principiante
Messaggi: 16
Iscritto il: 11 lug 2006, 20:19

Messaggio da Platone » 14 lug 2006, 13:14

Non erano complete, sbagliavo un attimino...ecco quello corrette...

Immagine

e|----------------------------------------------------------0--1--3--
B|----------------------------------------------1--3-----------------
G|-----------------------------------0--2--4------------------------
D|------------------------0--2--3-----------------------------------
A|-------------0--2--3----------------------------------------------
E|--0--1--3---------------------------------------------------------
--
Immagine

e|-------------------------------------------------------1--3--5---------
B|-----------------------------------------3--5--6-----------------------
G|-------------------------------2--4--5---------------------------------
D|--------------------2--3--5--------------------------------------------
A|-----------2--3--5-----------------------------------------------------
E|--3--5------------------------------------------------------------------
--
Immagine

e|---------------------------------------------3--5--7------
B|---------------------------------------5--6---------------
G|------------------------------4--5--7---------------------
D|---------------------3--5--7------------------------------
A|------------3--5--7---------------------------------------
E|------5--7------------------------------------------------
--
Immagine

e|-----------------------------------------------------7--8-10------
B|----------------------------------------------8-10----------------
G|------------------------------------7--9-10-----------------------
D|--------------------------7--9-10---------------------------------
A|----------------7--8-10-------------------------------------------
E|------7--8-10-----------------------------------------------------
--
Immagine

e|-------------------------------------------------------8-10-12------
B|-----------------------------------------------10-12-----------------
G|------------------------------------9-10-12-------------------------
D|-------------------------9-10-12------------------------------------
A|--------------8-10-12-----------------------------------------------
E|------10-12----------------------------------------------------------

Altra domandina...ma le diteggiature per le maggiori...una volta suonate mooooolte volte e imparate mi serviranno un sacco anche per capire alcuni accordi(1-3-5 di una scala, tipo triade se nn sbaglio)..giusto?

Tnks 5 * 10^25 per la disponibilità e la pazienza
Due cose sono infinite: l'universo e la stupidità umana(Albert Einstein)

Avatar utente
David
Amministratore
Amministratore
Messaggi: 5941
Iscritto il: 07 apr 2006, 22:11
Località: Villafrati (Pa)

Messaggio da David » 14 lug 2006, 13:22

Certo che ti serviranno! :wink:


Platone
Principiante
Principiante
Messaggi: 16
Iscritto il: 11 lug 2006, 20:19

Messaggio da Platone » 14 lug 2006, 13:25

David ha scritto:Certo che ti serviranno! :wink:
intanto mi "faccio" l'orecchio... Immagine
Due cose sono infinite: l'universo e la stupidità umana(Albert Einstein)

Avatar utente
Lucifer Sam
Apprendista
Apprendista
Messaggi: 57
Iscritto il: 02 feb 2007, 16:44
Località: Firenze
Contatta:

Messaggio da Lucifer Sam » 05 apr 2007, 01:22

Platone ha scritto:Ho fatto uno schemino degli schemi...
Sono giusti???


-E|--------------------------------------------------------------
B|----------------------0--1-----------------------------------
G|-----------------0--2----------------------------------------
D|-------0--2--3----------------------------------------------
A|----3--------------------------------------------------------
+E|--------------------------------------------------------------
--

E|--------------------------------------------------------------
B|--------------------------------------------------------------
G|--------------------2--4--5---------------------------------
D|------0--2--3--5--------------------------------------------
A|---3---------------------------------------------------------
E|--------------------------------------------------------------
--

E|---------------------------5--7--8--------------------------
B|----------------5--6--8-------------------------------------
G|--------5--7------------------------------------------------
D|-------------------------------------------------------------
A|-------------------------------------------------------------
E|-------------------------------------------------------------
--


E|--------------------------------------------------------------
B|--------------------------------------------------------------
G|--------------------------------------------------------------
D|-------------------7--9--10---------------------------------
A|----0--7--8--10---------------------------------------------
E|--8-----------------------------------------------------------
--

E|--------------------------------------------------------------
B|-----------------------------10--12--13--------------------
G|----------------9--10--12----------------------------------
D|-----10--12-------------------------------------------------
A|--------------------------------------------------------------
E|--------------------------------------------------------------
--

E|------------12--13--14-------------------------------------
B|--13--15----------------------------------------------------
G|--------------------------------------------------------------
D|--------------------------------------------------------------
A|----------------------------12--14--15---------------------
E|--------------------------------------------------------------


Scusate se m'intrometto. COme sono state trasportate queste? ho capito che se per esempio sono in MI , per fare una scala di FA aumento di 1 tasto tutta la tab . Ma qua non sono cambiati solo i numeri ma ci siamo pure spostati. Come funziona?

Grazie in anticipo ;-)

Avatar utente
Lucifer Sam
Apprendista
Apprendista
Messaggi: 57
Iscritto il: 02 feb 2007, 16:44
Località: Firenze
Contatta:

Messaggio da Lucifer Sam » 05 apr 2007, 01:25

Questo forum è oro . Grazie a voi sono andati via molti dubbi sulle scale :Very Happy:

Sasy
Principiante
Principiante
Messaggi: 6
Iscritto il: 30 mar 2007, 11:15
Località: Napoli

Messaggio da Sasy » 10 apr 2007, 14:43

Platone ha scritto:
intanto mi "faccio" l'orecchio... Immagine sostituita dal suo url: http://chitarradaspiaggia.com/forum/ima ... n_cool.gif
Indubbiamente farai l'orecchio suonando le scale e ti capiterà sempre più spesso di capire al volo dove mettere le mani per riprodurre un'assolo che hai sentito per radio :Very Happy:

Io ho ricominciato da zero la chitarra studiandomi le scale ed il mio orecchio è migliorato in maniera fenomenale :)

Quindi coraggio con le scale :rocken:
Isn't it midnight on the other side of the world?

Do you remember the face of a pretty girl?

Avatar utente
selva_oscura
Esperto
Esperto
Messaggi: 992
Iscritto il: 04 gen 2007, 15:32
Località: Taviano (LE)

Messaggio da selva_oscura » 10 apr 2007, 16:11

quindi ricapitolando:
qusti sono gli sviluppi della scala maggiore di D..giusto?

e|------------------------------0-1-3--|
B|--------------------------1-3--------|
G|--------------------0-2-4------------|
D|--------------0-2-3------------------|
A|--------0-2-3------------------------|
E|--0-1-3------------------------------|

e|------------------------------3-5--|
B|------------------------3-5-6------|
G|------------------2-4-5------------|
D|------------2-3-5------------------|
A|------2-3-5------------------------|
E|--3-5------------------------------|

e|------------------------------5-7-8--|
B|------------------------5-6-8--------|
G|------------------4-5-7--------------|
D|--------------5-7--------------------|
A|--------5-7-8------------------------|
E|--5-7-8------------------------------|

e|---------------------------------7-8-10-|
B|----------------------------8-10--------|
G|---------------------7-9-10-------------|
D|--------------7-9-10--------------------|
A|-------7-8-10---------------------------|
E|--8-10----------------------------------|

e|--------------------------------------------------10-12-13--|
B|---------------------------------------10-12-13------------|
G|-----------------------------9-10-12-----------------------|
D|-------------------9-10-12---------------------------------|
A|------------10-12------------------------------------------|
E|--10-12-13------------------------------------------------|

e|----------------------------------------------------12-13-15--|
B|-----------------------------------------12-13-15-------------|
G|----------------------------------12-14------------------------|
D|-----------------------12-14-15-------------------------------|
A|-------------12-14-15-----------------------------------------|
E|--12-13-15----------------------------------------------------|

quindi da questi, possiamo avere sviluppi di re mi e compagnia bella semplicemente traslando di 1 tono (anche nel caso di mi e si ( mi-fa che diventera fa#)

ora, scusate la mia ignoranza, ma tutti gli sviluppi sono questi?
xkè si fermano al 12° tasto e nn contiunuano sulla tastiera verso il 15 o 18°?
è una questione di praticità oppure in quei casi nn si parla + di scale maggiori?

un ultima cosa, quando troviamo una scala, di solito la 1° o ultima nota dovrebbe richiamare l'accordo della medesima,quindi se noi incontriamo :

e|------------------------------5-7-8--|
B|------------------------5-6-8--------|
G|------------------4-5-7--------------|
D|--------------5-7--------------------|
A|--------5-7-8------------------------|
E|--5-7-8------------------------------|

questa scala dovrebbe essere un scala costruita sull'accordo di A (xkè la nota tastata al 5° de E basso è A)..quindi una scla in A... invece xkè la troviamo negli sviluppi di C????
Aiuooo nn ci capisco nienteeee :pianto: :dubbioso:

Avatar utente
Mirko
Maestro
Maestro
Messaggi: 1242
Iscritto il: 08 nov 2006, 22:35

Messaggio da Mirko » 10 apr 2007, 16:46

Dal 12° tasto si ripetono identici, gli intervalli infatti sono i soliti; suonano chiaramente un'ottava sopra rispetto ai corrispettivi pattern in prima posizione...

Il modo ionico della scala naturale minore di la corrisponde al modo misolidio della scala maggiore di do.....
Immagine
Sabry Immagine

Avatar utente
invidia
Maestro
Maestro
Messaggi: 1310
Iscritto il: 26 gen 2007, 23:17
Località: Milano
Contatta:

Messaggio da invidia » 10 apr 2007, 17:45

Mirko ha scritto:Dal 12° tasto si ripetono identici, gli intervalli infatti sono i soliti; suonano chiaramente un'ottava sopra rispetto ai corrispettivi pattern in prima posizione...

Il modo ionico della scala naturale minore di la corrisponde al modo misolidio della scala maggiore di do.....
:dubbioso:

i modi indicano una scala/sonorità precisa ...

il modo ionico è una scala maggiore mentre il misolidio è una scala maggiore con il 7mo grado bemolle
quindi non può esserci corrispondenza tra uno ionico e un misolidio ...
shanti Maks.

save the planet,
kill yourself!

Avatar utente
Mirko
Maestro
Maestro
Messaggi: 1242
Iscritto il: 08 nov 2006, 22:35

Messaggio da Mirko » 10 apr 2007, 18:28

Non misolidio comunque, ho sbagliato...eolio

Insomma mi spiego meglio: il primo modo della scala minore naturale di la è anche il sesto modo della scala maggiore di do.....
Immagine
Sabry Immagine

Avatar utente
invidia
Maestro
Maestro
Messaggi: 1310
Iscritto il: 26 gen 2007, 23:17
Località: Milano
Contatta:

Messaggio da invidia » 10 apr 2007, 18:47

Mirko ha scritto:Non misolidio comunque, ho sbagliato...eolio

Insomma mi spiego meglio: il primo modo della scala minore naturale di la è anche il sesto modo della scala maggiore di do.....
ok, così va meglio, ma cmq occhio che le note hanno fuzioni differenti ...
shanti Maks.

save the planet,
kill yourself!

Avatar utente
selva_oscura
Esperto
Esperto
Messaggi: 992
Iscritto il: 04 gen 2007, 15:32
Località: Taviano (LE)

Messaggio da selva_oscura » 10 apr 2007, 23:26

ok dai fa niente..ci rinuncio...preferisco continuare a divertirmi con cover che a scervellarmi così :ciauz:


Rispondi
  • Argomenti simili
    Risposte
    Visite
    Ultimo messaggio

Chi c’è in linea

Visitano il forum: Nessuno e 4 ospiti