aiutatemi!!!

Di tutto di più sul suonare la chitarra

Moderatori: David, forons, avanzo, lespaul

Rispondi
-->LV<--
Principiante
Principiante
Messaggi: 30
Iscritto il: 17 nov 2007, 10:53

aiutatemi!!!

Messaggio da -->LV<-- » 30 mar 2008, 14:37

aiuto!!!
ho inventato 1 riff per chitarra, ma mi sembra conosciuto, cioè mi sembra che già sia stato usato per 1 canzone.
le tab sono:

--------------------------------------------------------------------------------------------------------------------------------------
-------11------11------11------11------11------11------11------11------11------11------11------11------11------11------11------11-
--------------------------------------------------------------------------------------------------------------------------------------
--13------13------13------13------12------12------12------12------11------11------11------11-----10------10------10------10-------
---------------------------------------------------------------------------------------------------------------------------------------
---------------------------------------------------------------------------------------------------------------------------------------


---------------------------------
---11---10---11-----------------
---------------------------------
-------------------10------------ poi si ripete tutto
---------------------------------
---------------------------------


se questo riff l'ho inventato io aiutatemi a migliorarlo!!!!!!!!!!!!!!!!! grzie tante!!!!!!!!!!!!!!!!!!!!


Avatar utente
Daron1988
Esperto
Esperto
Messaggi: 492
Iscritto il: 05 giu 2007, 00:32

Re: aiutatemi!!!

Messaggio da Daron1988 » 30 mar 2008, 16:00

Senza chitarra davanti non ti saprei dire , però permettimi mi sembra un pochino banale (senza offesa) a occhio piuttosto che scendere di semitoni io farei una roba del genere :

--------------------------------------------------------------------------------------------------------------------------------------
-------11------11------11------11------11------11------11------11------8------8------8------8------10------10------10------11-
--------------------------------------------------------------------------------------------------------------------------------------
--13------13------13------13------12------12------12------12------10------10------10------10-----10------10------10------10-------
---------------------------------------------------------------------------------------------------------------------------------------
---------------------------------------------------------------------------------------------------------------------------------------

Cmq essendo un 4/4 mi ci gioco qualsiasi cosa che esiste gia :Very Happy:

-->LV<--
Principiante
Principiante
Messaggi: 30
Iscritto il: 17 nov 2007, 10:53

Re: aiutatemi!!!

Messaggio da -->LV<-- » 31 mar 2008, 21:26

ha 1 ritmo molto carino però non mi piace la parte 8-10 mo vedo di migliorarla grazie mi hai aiutato molto questa canzone non credo che l'avranno copiata nn l'ho mai sentita


Rispondi
  • Argomenti simili
    Risposte
    Visite
    Ultimo messaggio

Chi c’è in linea

Visitano il forum: Nessuno e 1 ospite